opin.menu.register.jpgopin.menu.members.jpgopin.menu.forumfaq.jpgopin.menu.search.jpgopin.menu.home.jpgview our wiki

Go Back  The Tool Page: Opinion » Tool » Albums » 10,000 Days » 08. Rosetta Stoned
User Name
Password
Reply
Old 04-26-2006, 04:04 PM   #1
Level 2 - Poster
 
AmishRefugee's Avatar
 
Join Date: Apr 2006
Location: STL
Posts: 9
Bincount™: 9
Full tab up to the solo

not sure why no one has done this yet (as far as i can see, sorry if this thread is redundant)

but here's my best attempt at a tab up to the solo about 3/4 of the way through the song

lot of fun to play but gets tricky at times

Code:
Rosetta Stoned Tab - v0.1

By AMISH

drop D (of course)

E|-----------------------------------------------------------
B|-----------------------------------------------------------
G|-----------------------------------------------------------
D|-----------------------------------------------------------
A|---------3--5--<(let ring)--------(2x)---------------------
D|---3--5--------0-------------------------------------------
(still not sure how to make that artificial harmonic sound good)

3rd time:
E|-----------------------------------------------------------
B|-----------------------------------------------------------
G|-----------------------------------------------------------
D|-----------------------------------------------------------
A|--------3--5>3-------[go immediatly to next riff]----------
D|--3--5-----------------------------------------------------

00:18
E|---[Palm Muted]--------------------------------------------
B|-----------------------------------------------------------
G|----------------------------------------------------[x8]---
D|-----------------------------------------------------------
A|--------------------3--5>3---<(that 3 might be a 0)--------
D|--0--3--5--0--3--5-----------------------------------------

00:37
E|-----------------------------------------------------------
B|-----------------------------------------------------------
G|-----------------------------------------------------------
D|-----------------------[x8]--------------------------------
A|----------3--5---------------------------------------------
D|-0--3--5---------------------------------------------------

[00:18 part again] (x8)
>>>>but dont palm mute the last 3 notes on the A string

[00:37 part again] (x8)

[00:18 part again] (x8)

[00:37 part again] (x8)

(should take you to 01:40)


01:55        orange peels and fetal spooning
E|-----------------------------------------------------------
B|-----------------------------------------------------------
G|------------5--7------------------------------------------
D|---0--3--5-----------------(x8)-------------------------
A|-----------------------------------------------------------
D|-----------------------------------------------------------

02:06
E|-----------------------------------------------------------
B|-----[palm muted except for 2nd half of 4th time]----------
G|-----------------|----------------------------------------
D|-----------------|--------------------(4x)----------------
A|-----------------|--------3--5>3--------------------------
D|--0--3--0--3--5--|--3--5----------------------------------

02:16
E|-----------------------------------------------------------
B|-----------------------------------------------------------
G|-----------------|-----------------------------------------
D|--0--3--0--3--5--|--3--5-(3--5>3)--<(not sure if those belong)
A|--0--3--0--3--5--|--3--5--3--5>3---------------------------
D|--0--3--0--3--5--|--3--5-----------------------------------

02:26
E|-----------------------------------------------------------
B|-----------------------------------------------------------
G|-----------------------------------------------------------
D|-----------------------------------------------------------
A|---------3-----0----------0--3>0---------------------------
D|---0--3-----0-------0--3-----------------------------------
(this part is strange because i think he skips the first note
 the third time around)

02:46
E|-----------------------------------------------------------
B|-----------------------------------------------(on 4th)----
G|-----------------------------------------------------------
D|----------3------5----------3-----3>5----(x4)-----0--------
A|---0---3--3---0--5---0---3--3--0--3>5-------------0--------
D|---0---3------0------0---3-----0------------------0--------

03:00
E|-----------------------------------------------------------
B|-----------------------------------------------------------
G|-----------------------------------------------------------
D|------------------------------------(x16)------------------
A|-----0--7-----3--5-----0--7-----3--------------------------
D|--0--------0--------0--------0-----------------------------

(palm mute it a little for the last 8 then let go for the last 1)

03:53
E|-----------------------------------------------------------
B|-----------------------------------------------------------
G|-----------------------------------------------------------
D|-----------------------------------------------------------
A|-----------------------------------------------------------
D|0-0---3-3---0-0---3-3-0-0---3-3---0-0---3-3----------------

04:00
E|-----------------------------------------------------------
B|-----------------------------------------------------------
G|-----------------------------------------------------------
D|--0-0>>--0-0>>---------------------------------------------
A|--0-0>>--0-0>>---------------------------------------------
D|--0-0>>--0-0>>---------------------------------------------

[03:00 riff again]  (16 times i believe) 

[04:00 riff again]

04:53
E|-----------------------------------------------------------
B|-----------------------------------------------------------
G|-----------------------------------------------------------
D|----------------(x3)---------------------------------------
A|----------5-3-----------------0-3--------------------------
D|--0-3-0-3-------------0-3-0-3------------------------------

[03:00 riff again]

[04:00 riff again] (three times as much as before
                    slurred for second 2/3 and
                    change the 3 power chord 
                    to an 8 on the second to 
                    last time)

05:45
E|-----------------------------------------------------------
B|-----------------------------------------------------------
G|-----------------------------------------------------------
D|-0--0----0--0----------------------------------------------
A|-0--0----0--0----------------------------------------------
D|-0--0----0--0---------------------------------------------- 

06:09
E|-----------------------------------------------------------
B|-----------0-2-5-------------------------------------------
G|--0--3--0--------------------------------------------------
D|-----------------------------------------------------------
A|-----------------------------------------------------------
D|-----------------------------------------------------------
i still have trouble keeping this clean but that seems right

06:29 when the Heeeeeeeey part comes in
E|-----------------------------------------------------------
B|----------------------------------3------------------------
G|-----------0-2-5------------0-2-5--------------------------
D|--0--3--0----------0--3--0---------------(x4)--------------
A|-----------------------------------------------------------
D|-----------------------------------------------------------

[back to 06:09 riff]

[back to 06:29 riff] <<at 06:52


E|-----------------------------------------------------------
B|-----------------------------------------------------------
G|--------0--2-3---5-----------------------------------------
D|--0--3-------3---5-----------------------------------------
A|-------------1---3-----------------------------------------
D|-----------------------------------------------------------
if anything seems wrong, just let me know, i'll look into it

and if anyone feels like doing the solo for me, i definitely dont have the time right now, go ahead
OFFLINE |   Reply With Quote


Reply

Rate This Thread
You have already rated this thread
« Previous Thread | Next Thread »

Quick Reply
Your Reply:
Forum Jump

all posts © their respective authors. the tool page is not responsible for any of their thoughts, brilliant or otherwise.