opin.menu.register.jpgopin.menu.members.jpgopin.menu.forumfaq.jpgopin.menu.search.jpgopin.menu.home.jpgview our wiki

Go Back  The Tool Page: Opinion » Albums » 10,000 Days » 01. Vicarious
User Name
Password
Reply
Old 04-16-2006, 06:53 AM   #1
Super Bat Kiss
 
5th Eye's Avatar
 
Join Date: Feb 2005
Location: Columbusland
Posts: 6,162
Bincount™: 9554
Bass Tab

Yes that's right. I don't know if I'm allowed to post this, but if I'm not it can be removed, right?

It's actually not that hard; some weird bits though...

Code:
Tuning: Dropped D - D, A, D, G

------------= Key =------------
~  let ring         *  stop string
/  slide up         x  muted note

Intro (0:01)
G |7-----5-----7-------|9-----5-----7-------|10----9-----5-------|9-----5-----7---5---|
D |--0-0---0-0---0-0-0-|--0-0---0-0---0-0-0-|--0-0---0-0---0-0-0-|--0-0---0-0---0---0-| x3
A |--------------------|--------------------|--------------------|--------------------|
D |--------------------|--------------------|--------------------|--------------------|
  |
G |7-----5-----7-------|9-----5-----7-------|10----9-----5-------|9-----5-----7---7-|5~~~|
D |--0-0---0-0---0-0-0-|--0-0---0-0---0-0-0-|--0-0---0-0---0-0-0-|--0-0---0-0---0---|----| x1
A |--------------------|--------------------|--------------------|------------------|----|
D |--------------------|--------------------|--------------------|------------------|----|

Main Riff (0:46)
G |--------------------|
D |--------------------| x19
A |----5-------3-----3-|
D |0--0--0---0---0-03--|

Postverse (1:35) (rhythm here is tricky - vocals start at "0--03-" part)
G |----|------------|------------|
D |----|------------|------------| x1
A |--3-|------------|------------|
D |3---|0--03-0--05-|0--03-0-5-5-|
       "never funtil some  one    dies"

Midverse (1:39)
G |--------------------|--------------------|
D |--------------------|--------------------| x2
A |----5-------3-----3-|----5---------------|
D |0--0--0---0---0-03--|0--0--0---0-000-033-|

Main Riff (1:50) x10

Main Riff Modification (2:16) (be careful not to miss this)
G |-------------------------|
D |------------------3------| x1
A |----5-------3----------3-|
D |0--0--0---0---0-03--03---|

Main Riff (2:19) x1

Chorus (2:21)
G |------------------------|--------------------------------|
D |------------------------|--------------------------------|
A |------------------------|------3---3---------3-----5-----|
D |3-----3-----5---//10----|0---03--0---0*0---03--0*03--5-0-|
  |
G |------------------------|--------------------------------|
D |------------------------|--------------------------------| x1
A |------------------------|--------------------3-----------|
D |3-----3-----5---//10----|0---003---335*0---03--0*035-5-0-|
  |
G |------------------------|
D |------------------------|
A |------------------------|
D |3-----3-----5---//10--12|

Postchorus (2:45)
G |--------------------|--------------------|------------5-------|
D |--------------------|--------------------|5-----3-------0-7-7-| x1
A |--------------------|--------------------|--------------------|
D |*-------------------|--------------------|--------------------|

Main Riff (2:47) x8
Chorus (3:08) x1

Interlude I (3:26)
G |--------------------|    |--------------------|
D |--------------------| x7 |--------------------| x1
A |--------------------|    |--------------------|
D |0000*-0-00*-----00*-|    |0000*-0-00*0700000*7| <- for the extra notes, it's
                                                      more of a scrape/muted note
Guitar Solo (3:47)                                    than actual notes...
G |--------------------|
D |--------------------| x8
A |--------------------|
D |0000*-0-00-00*--00*-|

Interlude II (4:08)
G |--------------------|--------------------|--------------------|--------------------|
D |--------------------|--------------------|--------------------|--------------------| x2
A |----5-------5-----3-|----7-------3-----5-|----8-------7-----3-|----7-------3-----5-|
D |0000--0-00*0----00--|0000--0-00*0----00--|0000--0-00*0----00--|0000--0-00*0----00--|

Interlude III (4:29)
G |--------------------|--------------------|--------------------|--------------------|
D |--------------------|--------------------|--------------------|--------------------|
A |----5-------5-----35|----7-------3-----35|----8-------7-----35|----7-------3-----35|
D |0000--0-00*0----03--|0000--0-00*0----03--|0000--0-00*0----03--|0000--0-00*0----03--|
  |
  |                                             (this part is hard to hear...)                  x1
G |----------------------|----------------------|-----------------------|------------7-----57|
D |----------------------|----------------------|-----------------------|----------0---7-35--|
A |----5-------5------035|----7-------3------035|8-0---3------3------035|5-0---3-------------|
D |0000--0-00*0----003---|0000--0-00*0----003---|----0---0-035--0-035---|----0---0-----------|
   1...2...3...4...5trplt 1...2...3...4...5trplt 1...2...3.tpl4...5trplt

Intro Mod (4:50)
G |7-----5-----7-------|9-----5-----7-------|10----9-----5-------|9-----5-----7---5---|
D |--0-0---0-0---0-0-0-|--0-0---0-0---0-0-0-|--0-0---0-0---0-0-0-|--0-0---0-0---0---0-| x4
A |--------------------|--------------------|--------------------|--------------------|
D |--------------------|--------------------|--------------------|--------------------|
  (Fourth time add delay)

Outro I (5:32)
G |7-----5-----7-----35|    |7-----5-----7---5-8-|    |7-----5-----7---5---5---|
D |--0-0---0-0---0-03--| x8 |--0-0---0-0---0-----| x7 |--0-0---0-0---0---0---0-| x1
A |--------------------|    |--------------------|    |------------------------|
D |--------------------|    |--------------------|    |------------------------|
  (Delay off)

Outro II (6:13)
G |--------------------|--------------------|    |----------|    |--------|
D |--------------------|--------------------| x2 |----------| x1 |--3-----| x1
A |5-----3-----5-----6-|5-----3-----5---6---|    |----------|    |------3-|
D |--0000--0000--0000--|--0000--0000--00--00|    |0---------|    |03--03--|

Outro III (6:31)
G |------------------|------|
D |------------------|------| x1
A |----------------3-|------|
D |0--x3-0--x5-0--x--|0-3030|

Outro Chorus (6:34)
G |------------------------------------------------|    |------------------------|
D |------------------------------------------------| x2 |------------------------| x1
A |------------------------------------------------|    |------------------------|
D |3-----3-----5---//10----0--03-0--05-0--03-0-3-0-|    |3-----3-----5---//10----|

Outro IV (6:49)
G |----------------------|    |------------|    |-----|
D |----------------------| x4 |035---------| x3 |-----| x1
A |-------------------035|    |---035---035|    |-----|
D |00-03-0-00-02-0-035---|    |------035---|    |0350-|
__________________
music!
OFFLINE |   Reply With Quote
Old 04-16-2006, 07:02 AM   #2
Level 6 - Very Deep Thinker
 
bass_dude's Avatar
 
Join Date: Mar 2006
Location: London
Posts: 197
Bincount™: 5
Re: Bass Tab

I are orgasm.
OFFLINE |   Reply With Quote
Old 04-16-2006, 07:03 AM   #3
Level 6 - Very Deep Thinker
 
Bassmingo's Avatar
 
Join Date: Nov 2002
Location: The Great Pyramid
Posts: 113
Bincount™: 1
Re: Bass Tab

pretty sure he's using a whammy pedal, but i havent dissected the bass much yet. good work though.
__________________
Some say the end is near
Some say we'll see armageddon soon
I certainly hope we will
Ben Affleck was really good in that movie.
OFFLINE |   Reply With Quote
Old 04-16-2006, 07:06 AM   #4
Super Bat Kiss
 
5th Eye's Avatar
 
Join Date: Feb 2005
Location: Columbusland
Posts: 6,162
Bincount™: 9554
Re: Bass Tab

If he is using a whammy anywhere, I haven't heard it, and I totally ripped apart the song to make this accurate. I didn't hear any whammy-esque pitch shifting but let me know if you find otherwise.
__________________
music!
OFFLINE |   Reply With Quote
Old 04-16-2006, 08:01 AM   #5
Level 6 - Very Deep Thinker
 
Bassmingo's Avatar
 
Join Date: Nov 2002
Location: The Great Pyramid
Posts: 113
Bincount™: 1
Re: Bass Tab

Code:
Tuning: Dropped D - D, A, D, G

Intro (0:01)
G |7-----5-----7------7|9-----5-----7-------|10----9-----5-------|9-----5-----7---5--7|
D |--0-0---0-0---0-0---|--0-0---0-0---0-0-0-|--0-0---0-0---0-0-0-|--0-0---0-0---0-----| x3
A |--------------------|--------------------|--------------------|--------------------|
D |--------------------|--------------------|--------------------|--------------------|
fixed the intro, you forgot the hammer ons from 7 to 9 (end bar 1 ) and 5 to 7 (end bar 4)

i can hear whammy there too, but i'm not exactly sure how he's doing it or what setting. If he's not using whammy then theres some serious eq bringing out some upper harmonics.
__________________
Some say the end is near
Some say we'll see armageddon soon
I certainly hope we will
Ben Affleck was really good in that movie.
OFFLINE |   Reply With Quote
Old 04-16-2006, 01:01 PM   #6
Super Bat Kiss
 
5th Eye's Avatar
 
Join Date: Feb 2005
Location: Columbusland
Posts: 6,162
Bincount™: 9554
Re: Bass Tab

Ah! Good catch. Thanks for that.

Is that played in the interlude too?
__________________
music!
OFFLINE |   Reply With Quote
Old 04-16-2006, 01:08 PM   #7
Level 12 - Scurrilous
 
dracomordag's Avatar
 
Join Date: Jul 2005
Location: UNBAN SHADE UNBAN SHADE UNBAN SHADE UNBAN SHADE UNBAN SHADE UNBAN SHADE UNBAN SHADE UNBAN SHADE IMO
Posts: 5,320
Bincount™: 8627
Re: Bass Tab

will go play after "you wish" - Oceansize is over

looks good as of right now
__________________
give me a place to stand and i will move the earth
OFFLINE |   Reply With Quote
Old 04-16-2006, 01:26 PM   #8
Level 6 - Very Deep Thinker
 
tool25's Avatar
 
Join Date: Mar 2006
Location: RL
Posts: 144
Bincount™: 20
Re: Bass Tab

is that in french
__________________
Putting holes in happiness, we'll paint the future black, if it needs any color. -MM
OFFLINE |   Reply With Quote
Old 04-16-2006, 02:17 PM   #9
Level 5 - Deep Thinker
 
paganman7's Avatar
 
Join Date: Mar 2006
Location: Tucson, AZ
Posts: 95
Bincount™: 10
Re: Bass Tab

I just wanted to say that I'm astonished at people's ability to listen to music and dissect it technically...I simply don't have an ear for that, and am impressed to hell when other people do.

Strong work!
OFFLINE |   Reply With Quote
Old 04-16-2006, 02:19 PM   #10
Banned.
 
Join Date: Apr 2006
Location: Philadelphia
Posts: 423
Bincount™: 10
Re: Bass Tab

Thanks. I've been trying to sort out the bassline for a sample pack for a remix. good shot!
OFFLINE |   Reply With Quote
Old 04-16-2006, 02:27 PM   #11
Level 12 - Scurrilous
 
dracomordag's Avatar
 
Join Date: Jul 2005
Location: UNBAN SHADE UNBAN SHADE UNBAN SHADE UNBAN SHADE UNBAN SHADE UNBAN SHADE UNBAN SHADE UNBAN SHADE IMO
Posts: 5,320
Bincount™: 8627
Re: Bass Tab

Quote:
Originally Posted by tool25
is that in french
?

anyway, this is a pretty accurate tab, and made me respect the little subtleties in this song even more, not to mention how ridiculous the crossrhythms are in the verses.

good work
__________________
give me a place to stand and i will move the earth
OFFLINE |   Reply With Quote
Old 04-16-2006, 03:42 PM   #12
Level 4 - Thinker
 
Join Date: Jan 2006
Location: Under a dead Ohio sky
Posts: 48
Bincount™: 3
Re: Bass Tab

fucking awesome thanks guys
OFFLINE |   Reply With Quote
Old 04-16-2006, 04:01 PM   #13
Level 4 - Thinker
 
Join Date: Apr 2006
Location: Margate
Posts: 44
Bincount™: 0
Re: Bass Tab

Very nice man. I'll be working on that tomorrow lol.
OFFLINE |   Reply With Quote
Old 04-16-2006, 04:05 PM   #14
Level 6 - Very Deep Thinker
 
Bassmingo's Avatar
 
Join Date: Nov 2002
Location: The Great Pyramid
Posts: 113
Bincount™: 1
Re: Bass Tab

Heres something that will help you practice it. I did some filtering and just left the guitar. just put this mp3 on loop and play along, you'll get to hear where the riffs overlap a bit better


http://rapidshare.de/files/18158925/vic_intro.mp3.html
__________________
Some say the end is near
Some say we'll see armageddon soon
I certainly hope we will
Ben Affleck was really good in that movie.
OFFLINE |   Reply With Quote
Old 04-16-2006, 04:15 PM   #15
Banned.
 
orange.juice's Avatar
 
Join Date: Oct 2005
Location: outside your pixel universe
Posts: 1,745
Bincount™: 932
Re: Bass Tab

http://rapidshare.de/files/18191406/vicarious.gp4.html

this is my attempt of a Guitar Pro Tab for the song. about 60% done. (drums, guitar, bass, vocals, also triangle)

please tell me what you think of it, i'm sure i made some terrible mistakes.
OFFLINE |   Reply With Quote
Old 04-16-2006, 04:20 PM   #16
On Probation
 
BlueSecondSun's Avatar
 
Join Date: Apr 2006
Location: Dallas, TX
Posts: 25
Bincount™: 1
Re: Bass Tab

Quote:
Originally Posted by orange.juice
http://rapidshare.de/files/18191406/vicarious.gp4.html

this is my attempt of a Guitar Pro Tab for the song. about 60% done. (drums, guitar, bass, vocals, also triangle)

please tell me what you think of it, i'm sure i made some terrible mistakes.

It is not a triangle. It is a Mandala made my Synthesia. It's really badass.

http://synesthesiacorp.com/home.html
OFFLINE |   Reply With Quote
Old 04-17-2006, 04:05 AM   #17
Banned.
 
orange.juice's Avatar
 
Join Date: Oct 2005
Location: outside your pixel universe
Posts: 1,745
Bincount™: 932
Re: Bass Tab

yeah but a muted triangle in general midi does simulate it quite well.
OFFLINE |   Reply With Quote
Old 04-17-2006, 08:03 AM   #18
Banned.
 
orange.juice's Avatar
 
Join Date: Oct 2005
Location: outside your pixel universe
Posts: 1,745
Bincount™: 932
Re: Bass Tab

update on my Guitar Pro tab:
http://rapidshare.de/files/18241095/vicarious.gp4.html

also, here's a midi file for those of you who don't have Guitar Pro:
http://rapidshare.de/files/18240933/vicarious.mid.html
play it in Media Player or Winamp or something.
OFFLINE |   Reply With Quote
Old 04-17-2006, 11:09 AM   #19
Level 4 - Thinker
 
Join Date: Apr 2006
Location: Charlotte, NC
Posts: 36
Bincount™: 0
Re: Bass Tab

i could swear that the open D string is played along with some of the notes on the G string during the intro.

maybe its just me. good tab!
OFFLINE |   Reply With Quote
Old 04-17-2006, 03:21 PM   #20
Super Bat Kiss
 
5th Eye's Avatar
 
Join Date: Feb 2005
Location: Columbusland
Posts: 6,162
Bincount™: 9554
Re: Bass Tab

Thanks for the compliments guys, I appreciate it.

I also started a midi, but I gave up because I hate doing the drum parts.
__________________
music!
OFFLINE |   Reply With Quote
Old 04-17-2006, 03:25 PM   #21
Level 5 - Deep Thinker
 
Join Date: Jan 2003
Location: Wijhe, Holland
Posts: 73
Bincount™: 4
Re: Bass Tab

Nevermind. Respect for the tabber!!!
__________________
Not Noticing the Ancient Sword Which I'm holding in My Hand

Last edited by Tachyon; 04-17-2006 at 03:29 PM..
OFFLINE |   Reply With Quote
Old 04-17-2006, 03:30 PM   #22
Banned.
 
orange.juice's Avatar
 
Join Date: Oct 2005
Location: outside your pixel universe
Posts: 1,745
Bincount™: 932
Re: Bass Tab

http://rapidshare.de/files/18271941/vicarious.gp4.html

this is an updated version of my tab with F!end's guitar in it.
OFFLINE |   Reply With Quote
Old 04-17-2006, 03:58 PM   #23
Level 6 - Very Deep Thinker
 
F!end's Avatar
 
Join Date: Mar 2006
Location: Santiago, Chile
Posts: 194
Bincount™: 7
Re: Bass Tab

modified version of ^it^

http://rapidshare.de/files/18277595/vicarious2.gp4.html

*I* think it's better, though some drum parts are still missing
__________________
[Φ] Youя effoяt to яema!и what you aяe !s what l!m!ts you [Φ]
OFFLINE |   Reply With Quote


Reply

Rate This Thread
You have already rated this thread
« Previous Thread | Next Thread »

Quick Reply
Your Reply:
Forum Jump

Powered by: vBulletin 3.8.7 Patch Level 2
Copyright ©2000 - 2007, Jelsoft Enterprises Ltd.
all posts © their respective authors. the tool page is not responsible for any of their thoughts, brilliant or otherwise.